source: ultimate-guitar.com

I've been searching for this tab and I found it not too long ago, I'm glad to finally find it for myself to practice..... wooo!!!








Rob PattinsonNever Think
Twilight Soundtrack

A lot of people requested this tab including me so I figured I would give it a try! This
my first tab ever.

Capo: 2 Standard Tuning

*When you strum the chords, it is very messy. Listen to the song to learn the strumming.
there is more than one note together, it is strummed.
Intro


|-----------------------------------------------------0----------|
|----------1--------1-----------1------------------1--1----------|
|------0------------------------0------------------0--0----------|
|--0h2---2------0h2-----------0h2---------0------0h2--2----------|
|----------------------3------------------0----------------------|
|-------------------------0------------1--1-----------------1----|

Strum while
adding
../
|------------------0------------0-0--------------0------0--------|
|--1---------------1------------1-1-------1------1------1--------|
|--0---------------0------------0-0-----------0--0------0--------|
|--0-------0-2-2---2-----00h2-----2---0h2---2----2------2---0h2--|
|--0---0h3---------3-----------------------------0---3--3--------|
|--1---------------0----0------------------------0------0--------|


|----0---0---3----3---3---3---3--3--3-3----0---------------------|
|----1---1---1----1---1---1---0-h1--3p1----1---------------------|
|--0h2---0---0--0h2---0-h-2---2--2--2-2----0-----------0---------|
|----0---2---2----0---0---0---0--0--0-0----2--------0h2----------|
|----0---0---0----0---0---0---0--0--0-0----0---3----------2------|
|----0---0---0----0---0---0---0--0--0-0----0---------------------|


lightly

|-0--------------------------------------------------------------|
|-1--------1---1p0-----1--0---0h1--3p1---------------------------|
|-0----0---0-----0-----0--0-----0----0------------------------0--|
|-2----0--h2-----2-----0--0-----2----2----------0-------2-----2--|
|-2----2---2-----2-----2--2-----2----2----------0h2-0---0-----0--|
|-0----0---0-----0---1----------0----0-----3------------------3--|


I should never think What's in your heart

|-----------------0-------0---------------------0---------0------|
|-----------------1-------1---------------------1---------1------|
|-----------------0-------0---------------------0---------0------|
|-----------------2-------0---------------------2---------0------|
|---------------3-3-------2---------------------3---------3------|
|-----------------0-------0---------------------0---------0------|


What's in our home So I wont
(strum messy)

|--0-----------------------------3---------------0--3------------|
|--1------------------------1p0--0---------------1--1------------|
|--0-----------------0--0h2------0---------------0--0------------|
|--2-----------------------------2---------------2--2------------|
|--0-----------------------------0---------------3--3------------|
|--1---------------1-------------3---------------0--0------------|

And you learn to hate me

|----------3--------------------------------3--------------------|
|----------1--------------------------------1--------------------|
|----------0--------------------------------0--------------------|
|--0-0---0h2--------------------------------2--------------------|
|--0h2---2-2----------------------------0h2p0--------------------|
|----------0--------------------------------0--------------------|

But still call me baby Oh love

|----3------------------------------------3-----------3----------|
|----1------------------------------------1-----------0----------|
|----0------------------------------------0-----------0----------|
|----2------------------------------------2-----------0----------|
|----0------------------------------------3-----------2----------|
|----0------------------------------------0-----------0----------|

So call me by my name

|------------0------------------0--------------------------------|
|------------1------------------1--------------------------------|
|------------0------------------0--------------------------------|
|------------2------------------0--------------------------------|
|------------3------------------3--------------------------------|
|------------0------------------0--------------------------------|

And I'll save your soul Save your soul

|-----3------------------3----------------3----------------------|
|-----1------------------1----------------1----------------------|
|-----0------------------0----------------0----------------------|
|-----2------------------0----------------2----------------------|
|-----3------------------2----------------0----------------------|
|-----0------------------0----------------0----------------------|

Before your to far gone

|-----------------------------3-------------------------------3--|
|-----------------------------0-----------------------1p0-----0--|
|-----------------------------0-----------0h2----0h2----------0--|
|-------------------------------------------------------------0--|
|----------------------------------------------------------------|
|------------------------1---------------------------------------|

Before nothing can be done

|----------------------------3-----------------------------------|
|----------------------------1-----------------------------------|
|----------------------------0-----------------------------------|
|------------------------0-0h2-----------------------------------|
|----------------------------0-----------------------------------|
|----------------------------0-----------------------------------|

And I'll try to decide when

|--3---------------------------------3---------------------------|
|--1---------------------------------1---------------------------|
|--0---------------------------------0---------------------------|
|--2---------------------------------0---------------------------|
|--3---------------------------------2---------------------------|
|--0---------------------------------0---------------------------|

She'll lie in the end





|------------------------------------3--------------------------|
|------------------------------------1--------------------------|
|------------------------------------0--------------------------|
|------------------------------------2--------------------------|
|------------------------------------0--------------------------|
|------------------------------------0--------------------------|

I got no fight in me in this whole damn world

|------------------------------3--------------------------------|
|------------------------------1--------------------------------|
|------------------------------0--------------------------------|
|------------------------------2--------------------------------|
|------------------------------3--------------------------------|
|------------------------------0--------------------------------|

Tell you to hold off But you still hold on

|-----------------------0---0---0-------------------------------|
|-----------------------1---1---1-------------------------------|
|-----------------------0--h2---0-------------------------------|
|-------------------------------2-------------------------------|
|---------------------------------------------------------------|
|-----------------1---------------------------------------------|

It's the one thing that I've known

|--3----------------------------------------3-------------------|
|--1----------------------------------------1-------------------|
|--0----------------------------------------0-------------------|
|--2----------------------------------------0-------------------|
|--3----------------------------------------2-------------------|
|--0----------------------------------------0-------------------|

Once I put my coat on

|-------3---------------------------------------3-------------|
|-------1---------------------------------------1-------------|
|-------0---------------------------------------0-------------|
|-------2---------------------------------------0-------------|
|-------3---------------------------------------2-------------|
|-------0---------------------------------------0-------------|

I'm coming out in this all wrong

|---------3--------------------------------------------------|
|---------1--------------------------------------------------|
|---------0-------------------------------------------0h2----|
|---------2--------------------------------------------------|
|---------0--------------------------------------------------|
|---------0---------------------------------------1----------|

She's standing outside holding me

|--------------------------------------3---------------------|
|--------------------------------------0---------------------|
|--------------------------------------0---------------------|
|--------------------------------------0---------------------|
|--------------------------------------2---------------------|
|--------------------------------------0---------------------|

Saying oh please I'm in love I'm in love

|---------3-----------------3----------------------3---------|
|---------1-----------------1--------------------1p0---------|
|---------0-----------------0--------------2-0h2---0---------|
|---------2-----------------0----------------------2---------|
|---------3-----------------2----------------------0---------|
|---------0-----------------0----------1-----------0---------|

Girl Save your soul Go on Save your soul





|-----3--------------3-----------------3--------------------|
|-----1--------------1-----------------1--------------------|
|-----0--------------0-----------------0--------------------|
|-----2--------------0-----------------2--------------------|
|-----3--------------2-----------------0--------------------|
|-----0--------------0-----------------0--------------------|

Before it's too far gone

|------------------0---------------------------3------------|
|------------------0-------------------1p0-----0------------|
|------------------0-------------0-0h2---------0------------|
|------------------0---------------------------0------------|
|------------------2---------------------------2------------|
|---------------1------------------------------0------------|


And before nothing can be done

|------------------------3--------------------3-------------|
|------------------------1--------------------1-------------|
|------------------------0--------------------0-------------|
|------------------------2--------------------0-------------|
|------------------------2--------------------2-------------|
|------------------------0--------------------0-------------|

'Cause without me You got it all So hold on

|----0-----------------3------------3-----------------3-----|
|----1-----------------1------------1-----------------0-----|
|----0-----------------0------------0-----------------0-----|
|----2-----------------0------------2-----------------0-----|
|----3-----------------2------------3-----------------2-----|
|----0-----------------0------------0-----------------0-----|

Without me you got it all So hold on

|-----------------------------------3--------3--------------|
|-----------------------------------0--------1--------------|
|-------------------------------0-0h2--------0--------------|
|-----------------------------------0--------2--------------|
|-----------------------------------0--------3--------------|
|--------------------1--------------0--------0--------------|

Without me you got it all

|--3-----------------------------------------------------3--|
|--1-----------------------------------------------------0--|
|--0-----------------------------------------------0h2---0--|
|--0-----------------------------------------------------0--|
|--2-----------------------------------------------------2--|
|--0-------------------------------------------1---------0--|

Without me you got it all so hold on

|---------------------------3------------------3------------|
|---------------------------1-----------------h1------------|
|---------------------------0------------------0------------|
|---------------------------2------------------0------------|
|---------------------------3------------------2------------|
|---------------------------0------------------0------------|

Without me you got it all so hold on

|--------------------------------3-------------3-----------|
|--------------------------------1-------------0-----------|
|--------------------------------0-------------0-----------|
|--------------------------------2-------------0-----------|
|--------------------------------3-------------2-----------|
|--------------------------------0-------------0-----------|

Without me you got it all so hold on




|-------------3-------------------------------------0-----|
|-------------1-------------------------------------1-----|
|-------------0-------------------------------------0-----|
|-------------2-------------------------------------2-----|
|-------------3-------------------------------------3-----|
|-------------0-------------------------------------0-----|

Definitely not perfect but it's very close!


http://robert-pattinson.net/

Views: 4

Tags: guitar, never, pattinson, robert, soundtrack, tabs, think, twilight

Comment by Chelsea Cullen on January 4, 2009 at 3:44pm
I am so stoked that you put this up, I am going to try to learn how to play it! I have a guitar and have always wanted to play but I have never had time....but I would do anything for Twilight..... :)

thanks again!
Comment by Krystyna - TEAMspunkransom on January 4, 2009 at 6:12pm
no problem!!! good luck!!!! :)

Comment

You need to be a member of TwiFans-Twilight Saga books and Movie Fansite to add comments!

Join TwiFans-Twilight Saga books and Movie Fansite

Advertising

FANGIRL WITH US HERE

© 2014    

Badges  |  Report an Issue  |  Terms of Service

Related Posts Plugin for WordPress, Blogger... Related Posts Plugin for WordPress, Blogger... Related Posts Plugin for WordPress, Blogger...